Lyrics & Chords‎ > ‎

Take A Picture

by Filter

[ in Drop-D ]

{intro}
e -----------------------------------------------------
B -----------------------------------------------------
G -----------------------------------------------------
D -9h11-11-11-11-9-11--11--11-----9h11-11-12-11-11-----
A -0----0--0--0--0-0---0---0---0--0----0--0--0--0------
D -----------------------------------------------------

e -----------------------------------------------------
B -----------------------------------------------------
G -----------------------------------------------------
D -----------------------------------------------------
A ----10--10--9-----9------10--10--9-------------------
D ----0---0---0-----0---0--0---0---0-------------------

/ Asus4 A / / Dsus4 D / / :

Awake on my airplane
Awake on my airplane
My skin is bare
My skin is theirs

{rpt 1st verse}

I feel like a new-born
{tacit}

And I feel like a new-born
{tacit}

Awake on my airplane
Awake on my airplane
I feel so real

{refrain}
Could you take my picture?
Because I won't remember
{repeat x2}
Yeah

/ Asus4 Dsus4 / Bsus4 Gsus4* /
* do a quick beat of D before doing G

I don't believe in, I don't believe
In your sanctity; your privacy

I don't believe in, I don't believe
In sanctity or hypocrisy

Can everyone agree that no one should be left alone
{tacit}

Can everyone agree that they should not be left alone
{tacit}

And I feel like a new-born
{tacit}

And I feel like a new-born
Kicking and screaming

{refrain}

Hey dad what do you think about your son now?
{tacit}

Hey dad what do you think about your son now?
{tacit}

{refrain}
Comments